  0
SECTION
  2
HEADER
  9
$ACADVER
  1
AC1009
  9
$EXTMIN
 10
0.0
 20
0.0
 30
0.0
  9
$EXTMAX
 10
1000.0
 20
1000.0
 30
0.0
  9
$FILLMODE
 70
 0
  9
$SPLFRAME
 70
 1
  0
ENDSEC
  0
SECTION
  2
TABLES
  0
TABLE
  2
LAYER
 70
1
  0
LAYER
  2
0
 70
     0
 62
     7
  6
CONTINUOUS
  0
ENDTAB
  0
ENDSEC
  0
SECTION
  2
ENTITIES
  0
LINE
  8
0
 62
     0
 10
0.0950846
 20
144.191
 30
0.0
 11
324.896
 21
144.191
 31
0.0
  0
LINE
  8
0
 62
     0
 10
324.896
 20
144.191
 30
0.0
 11
324.896
 21
0.365181
 31
0.0
  0
LINE
  8
0
 62
     0
 10
324.896
 20
0.365181
 30
0.0
 11
0.0950846
 21
0.365181
 31
0.0
  0
LINE
  8
0
 62
     0
 10
0.0950846
 20
0.365181
 30
0.0
 11
0.0950846
 21
144.191
 31
0.0
  0
LINE
  8
0
 62
     0
 10
4.47587
 20
7.26916
 30
0.0
 11
3.91915
 21
6.98528
 31
0.0
  0
LINE
  8
0
 62
     0
 10
3.91915
 20
6.98528
 30
0.0
 11
3.47541
 21
6.54156
 31
0.0
  0
LINE
  8
0
 62
     0
 10
3.47541
 20
6.54156
 30
0.0
 11
3.19016
 21
5.9848
 31
0.0
  0
LINE
  8
0
 62
     0
 10
3.19016
 20
5.9848
 30
0.0
 11
3.09507
 21
5.36607
 31
0.0
  0
LINE
  8
0
 62
     0
 10
3.09507
 20
5.36607
 30
0.0
 11
3.19016
 21
4.74733
 31
0.0
  0
LINE
  8
0
 62
     0
 10
3.19016
 20
4.74733
 30
0.0
 11
3.47541
 21
4.19061
 31
0.0
  0
LINE
  8
0
 62
     0
 10
3.47541
 20
4.19061
 30
0.0
 11
3.91915
 21
3.74826
 31
0.0
  0
LINE
  8
0
 62
     0
 10
3.91915
 20
3.74826
 30
0.0
 11
4.47587
 21
3.46301
 31
0.0
  0
LINE
  8
0
 62
     0
 10
4.47587
 20
3.46301
 30
0.0
 11
5.0946
 21
3.36517
 31
0.0
  0
LINE
  8
0
 62
     0
 10
5.0946
 20
3.36517
 30
0.0
 11
5.71197
 21
3.46301
 31
0.0
  0
LINE
  8
0
 62
     0
 10
5.71197
 20
3.46301
 30
0.0
 11
6.27006
 21
3.74826
 31
0.0
  0
LINE
  8
0
 62
     0
 10
6.27006
 20
3.74826
 30
0.0
 11
6.71241
 21
4.19061
 31
0.0
  0
LINE
  8
0
 62
     0
 10
6.71241
 20
4.19061
 30
0.0
 11
6.99629
 21
4.74733
 31
0.0
  0
LINE
  8
0
 62
     0
 10
6.99629
 20
4.74733
 30
0.0
 11
7.09415
 21
5.36607
 31
0.0
  0
LINE
  8
0
 62
     0
 10
7.09415
 20
5.36607
 30
0.0
 11
6.99629
 21
5.9848
 31
0.0
  0
LINE
  8
0
 62
     0
 10
6.99629
 20
5.9848
 30
0.0
 11
6.71241
 21
6.54156
 31
0.0
  0
LINE
  8
0
 62
     0
 10
6.71241
 20
6.54156
 30
0.0
 11
6.27006
 21
6.98528
 31
0.0
  0
LINE
  8
0
 62
     0
 10
6.27006
 20
6.98528
 30
0.0
 11
5.71197
 21
7.26916
 31
0.0
  0
LINE
  8
0
 62
     0
 10
5.71197
 20
7.26916
 30
0.0
 11
5.0946
 21
7.36561
 31
0.0
  0
LINE
  8
0
 62
     0
 10
5.0946
 20
7.36561
 30
0.0
 11
4.47587
 21
7.26916
 31
0.0
  0
LINE
  8
0
 62
     0
 10
319.276
 20
7.26916
 30
0.0
 11
318.72
 21
6.98528
 31
0.0
  0
LINE
  8
0
 62
     0
 10
318.72
 20
6.98528
 30
0.0
 11
318.276
 21
6.54156
 31
0.0
  0
LINE
  8
0
 62
     0
 10
318.276
 20
6.54156
 30
0.0
 11
317.992
 21
5.9848
 31
0.0
  0
LINE
  8
0
 62
     0
 10
317.992
 20
5.9848
 30
0.0
 11
317.895
 21
5.36607
 31
0.0
  0
LINE
  8
0
 62
     0
 10
317.895
 20
5.36607
 30
0.0
 11
317.992
 21
4.74733
 31
0.0
  0
LINE
  8
0
 62
     0
 10
317.992
 20
4.74733
 30
0.0
 11
318.276
 21
4.19061
 31
0.0
  0
LINE
  8
0
 62
     0
 10
318.276
 20
4.19061
 30
0.0
 11
318.72
 21
3.74826
 31
0.0
  0
LINE
  8
0
 62
     0
 10
318.72
 20
3.74826
 30
0.0
 11
319.276
 21
3.46301
 31
0.0
  0
LINE
  8
0
 62
     0
 10
319.276
 20
3.46301
 30
0.0
 11
319.895
 21
3.36517
 31
0.0
  0
LINE
  8
0
 62
     0
 10
319.895
 20
3.36517
 30
0.0
 11
320.514
 21
3.46301
 31
0.0
  0
LINE
  8
0
 62
     0
 10
320.514
 20
3.46301
 30
0.0
 11
321.07
 21
3.74826
 31
0.0
  0
LINE
  8
0
 62
     0
 10
321.07
 20
3.74826
 30
0.0
 11
321.513
 21
4.19061
 31
0.0
  0
LINE
  8
0
 62
     0
 10
321.513
 20
4.19061
 30
0.0
 11
321.798
 21
4.74733
 31
0.0
  0
LINE
  8
0
 62
     0
 10
321.798
 20
4.74733
 30
0.0
 11
321.896
 21
5.36607
 31
0.0
  0
LINE
  8
0
 62
     0
 10
321.896
 20
5.36607
 30
0.0
 11
321.798
 21
5.9848
 31
0.0
  0
LINE
  8
0
 62
     0
 10
321.798
 20
5.9848
 30
0.0
 11
321.513
 21
6.54156
 31
0.0
  0
LINE
  8
0
 62
     0
 10
321.513
 20
6.54156
 30
0.0
 11
321.07
 21
6.98528
 31
0.0
  0
LINE
  8
0
 62
     0
 10
321.07
 20
6.98528
 30
0.0
 11
320.514
 21
7.26916
 31
0.0
  0
LINE
  8
0
 62
     0
 10
320.514
 20
7.26916
 30
0.0
 11
319.895
 21
7.36561
 31
0.0
  0
LINE
  8
0
 62
     0
 10
319.895
 20
7.36561
 30
0.0
 11
319.276
 21
7.26916
 31
0.0
  0
LINE
  8
0
 62
     0
 10
134.063
 20
26.8911
 30
0.0
 11
134.063
 21
22.1919
 31
0.0
  0
LINE
  8
0
 62
     0
 10
134.063
 20
22.1919
 30
0.0
 11
94.4369
 21
22.1919
 31
0.0
  0
LINE
  8
0
 62
     0
 10
94.4369
 20
22.1919
 30
0.0
 11
94.4369
 21
25.422
 31
0.0
  0
LINE
  8
0
 62
     0
 10
94.4369
 20
25.422
 30
0.0
 11
92.7132
 21
25.422
 31
0.0
  0
LINE
  8
0
 62
     0
 10
92.7132
 20
25.422
 30
0.0
 11
92.7132
 21
26.3412
 31
0.0
  0
LINE
  8
0
 62
     0
 10
92.7132
 20
26.3412
 30
0.0
 11
89.4126
 21
26.3412
 31
0.0
  0
LINE
  8
0
 62
     0
 10
89.4126
 20
26.3412
 30
0.0
 11
89.4126
 21
25.422
 31
0.0
  0
LINE
  8
0
 62
     0
 10
89.4126
 20
25.422
 30
0.0
 11
87.6875
 21
25.422
 31
0.0
  0
LINE
  8
0
 62
     0
 10
87.6875
 20
25.422
 30
0.0
 11
87.6875
 21
22.1919
 31
0.0
  0
LINE
  8
0
 62
     0
 10
87.6875
 20
22.1919
 30
0.0
 11
86.862
 21
22.1919
 31
0.0
  0
LINE
  8
0
 62
     0
 10
86.862
 20
22.1919
 30
0.0
 11
86.862
 21
19.3918
 31
0.0
  0
LINE
  8
0
 62
     0
 10
86.862
 20
19.3918
 30
0.0
 11
87.6875
 21
19.3918
 31
0.0
  0
LINE
  8
0
 62
     0
 10
87.6875
 20
19.3918
 30
0.0
 11
87.6875
 21
13.1217
 31
0.0
  0
LINE
  8
0
 62
     0
 10
87.6875
 20
13.1217
 30
0.0
 11
89.4126
 21
13.1217
 31
0.0
  0
LINE
  8
0
 62
     0
 10
89.4126
 20
13.1217
 30
0.0
 11
89.4126
 21
12.1419
 31
0.0
  0
LINE
  8
0
 62
     0
 10
89.4126
 20
12.1419
 30
0.0
 11
92.7132
 21
12.1419
 31
0.0
  0
LINE
  8
0
 62
     0
 10
92.7132
 20
12.1419
 30
0.0
 11
92.7132
 21
13.1217
 31
0.0
  0
LINE
  8
0
 62
     0
 10
92.7132
 20
13.1217
 30
0.0
 11
94.4369
 21
13.1217
 31
0.0
  0
LINE
  8
0
 62
     0
 10
94.4369
 20
13.1217
 30
0.0
 11
94.4369
 21
17.592
 31
0.0
  0
LINE
  8
0
 62
     0
 10
94.4369
 20
17.592
 30
0.0
 11
134.063
 21
17.592
 31
0.0
  0
LINE
  8
0
 62
     0
 10
134.063
 20
17.592
 30
0.0
 11
134.063
 21
12.8916
 31
0.0
  0
LINE
  8
0
 62
     0
 10
134.063
 20
12.8916
 30
0.0
 11
148.062
 21
12.8916
 31
0.0
  0
LINE
  8
0
 62
     0
 10
148.062
 20
12.8916
 30
0.0
 11
148.062
 21
17.592
 31
0.0
  0
LINE
  8
0
 62
     0
 10
148.062
 20
17.592
 30
0.0
 11
187.687
 21
17.592
 31
0.0
  0
LINE
  8
0
 62
     0
 10
187.687
 20
17.592
 30
0.0
 11
187.687
 21
13.1217
 31
0.0
  0
LINE
  8
0
 62
     0
 10
187.687
 20
13.1217
 30
0.0
 11
189.413
 21
13.1217
 31
0.0
  0
LINE
  8
0
 62
     0
 10
189.413
 20
13.1217
 30
0.0
 11
189.413
 21
12.1419
 31
0.0
  0
LINE
  8
0
 62
     0
 10
189.413
 20
12.1419
 30
0.0
 11
192.713
 21
12.1419
 31
0.0
  0
LINE
  8
0
 62
     0
 10
192.713
 20
12.1419
 30
0.0
 11
192.713
 21
13.1217
 31
0.0
  0
LINE
  8
0
 62
     0
 10
192.713
 20
13.1217
 30
0.0
 11
194.437
 21
13.1217
 31
0.0
  0
LINE
  8
0
 62
     0
 10
194.437
 20
13.1217
 30
0.0
 11
194.437
 21
19.3918
 31
0.0
  0
LINE
  8
0
 62
     0
 10
194.437
 20
19.3918
 30
0.0
 11
195.263
 21
19.3918
 31
0.0
  0
LINE
  8
0
 62
     0
 10
195.263
 20
19.3918
 30
0.0
 11
195.263
 21
22.1919
 31
0.0
  0
LINE
  8
0
 62
     0
 10
195.263
 20
22.1919
 30
0.0
 11
194.437
 21
22.1919
 31
0.0
  0
LINE
  8
0
 62
     0
 10
194.437
 20
22.1919
 30
0.0
 11
194.437
 21
25.422
 31
0.0
  0
LINE
  8
0
 62
     0
 10
194.437
 20
25.422
 30
0.0
 11
192.713
 21
25.422
 31
0.0
  0
LINE
  8
0
 62
     0
 10
192.713
 20
25.422
 30
0.0
 11
192.713
 21
26.3412
 31
0.0
  0
LINE
  8
0
 62
     0
 10
192.713
 20
26.3412
 30
0.0
 11
189.413
 21
26.3412
 31
0.0
  0
LINE
  8
0
 62
     0
 10
189.413
 20
26.3412
 30
0.0
 11
189.413
 21
25.422
 31
0.0
  0
LINE
  8
0
 62
     0
 10
189.413
 20
25.422
 30
0.0
 11
187.687
 21
25.422
 31
0.0
  0
LINE
  8
0
 62
     0
 10
187.687
 20
25.422
 30
0.0
 11
187.687
 21
22.1919
 31
0.0
  0
LINE
  8
0
 62
     0
 10
187.687
 20
22.1919
 30
0.0
 11
148.062
 21
22.1919
 31
0.0
  0
LINE
  8
0
 62
     0
 10
148.062
 20
22.1919
 30
0.0
 11
148.062
 21
26.8911
 31
0.0
  0
LINE
  8
0
 62
     0
 10
148.062
 20
26.8911
 30
0.0
 11
134.063
 21
26.8911
 31
0.0
  0
LINE
  8
0
 62
     0
 10
298.37
 20
26.8911
 30
0.0
 11
312.37
 21
26.8911
 31
0.0
  0
LINE
  8
0
 62
     0
 10
312.37
 20
26.8911
 30
0.0
 11
312.37
 21
12.8916
 31
0.0
  0
LINE
  8
0
 62
     0
 10
312.37
 20
12.8916
 30
0.0
 11
298.37
 21
12.8916
 31
0.0
  0
LINE
  8
0
 62
     0
 10
298.37
 20
12.8916
 30
0.0
 11
298.37
 21
26.8911
 31
0.0
  0
LINE
  8
0
 62
     0
 10
279.32
 20
26.8911
 30
0.0
 11
293.32
 21
26.8911
 31
0.0
  0
LINE
  8
0
 62
     0
 10
293.32
 20
26.8911
 30
0.0
 11
293.32
 21
12.8916
 31
0.0
  0
LINE
  8
0
 62
     0
 10
293.32
 20
12.8916
 30
0.0
 11
279.32
 21
12.8916
 31
0.0
  0
LINE
  8
0
 62
     0
 10
279.32
 20
12.8916
 30
0.0
 11
279.32
 21
26.8911
 31
0.0
  0
LINE
  8
0
 62
     0
 10
260.27
 20
26.8911
 30
0.0
 11
274.27
 21
26.8911
 31
0.0
  0
LINE
  8
0
 62
     0
 10
274.27
 20
26.8911
 30
0.0
 11
274.27
 21
12.8916
 31
0.0
  0
LINE
  8
0
 62
     0
 10
274.27
 20
12.8916
 30
0.0
 11
260.27
 21
12.8916
 31
0.0
  0
LINE
  8
0
 62
     0
 10
260.27
 20
12.8916
 30
0.0
 11
260.27
 21
26.8911
 31
0.0
  0
LINE
  8
0
 62
     0
 10
241.22
 20
26.8911
 30
0.0
 11
255.22
 21
26.8911
 31
0.0
  0
LINE
  8
0
 62
     0
 10
255.22
 20
26.8911
 30
0.0
 11
255.22
 21
12.8916
 31
0.0
  0
LINE
  8
0
 62
     0
 10
255.22
 20
12.8916
 30
0.0
 11
241.22
 21
12.8916
 31
0.0
  0
LINE
  8
0
 62
     0
 10
241.22
 20
12.8916
 30
0.0
 11
241.22
 21
26.8911
 31
0.0
  0
LINE
  8
0
 62
     0
 10
222.17
 20
26.8911
 30
0.0
 11
236.17
 21
26.8911
 31
0.0
  0
LINE
  8
0
 62
     0
 10
236.17
 20
26.8911
 30
0.0
 11
236.17
 21
12.8916
 31
0.0
  0
LINE
  8
0
 62
     0
 10
236.17
 20
12.8916
 30
0.0
 11
222.17
 21
12.8916
 31
0.0
  0
LINE
  8
0
 62
     0
 10
222.17
 20
12.8916
 30
0.0
 11
222.17
 21
26.8911
 31
0.0
  0
LINE
  8
0
 62
     0
 10
203.12
 20
26.8911
 30
0.0
 11
217.12
 21
26.8911
 31
0.0
  0
LINE
  8
0
 62
     0
 10
217.12
 20
26.8911
 30
0.0
 11
217.12
 21
12.8916
 31
0.0
  0
LINE
  8
0
 62
     0
 10
217.12
 20
12.8916
 30
0.0
 11
203.12
 21
12.8916
 31
0.0
  0
LINE
  8
0
 62
     0
 10
203.12
 20
12.8916
 30
0.0
 11
203.12
 21
26.8911
 31
0.0
  0
LINE
  8
0
 62
     0
 10
62.6251
 20
26.8911
 30
0.0
 11
76.6258
 21
26.8911
 31
0.0
  0
LINE
  8
0
 62
     0
 10
76.6258
 20
26.8911
 30
0.0
 11
76.6258
 21
12.8916
 31
0.0
  0
LINE
  8
0
 62
     0
 10
76.6258
 20
12.8916
 30
0.0
 11
62.6251
 21
12.8916
 31
0.0
  0
LINE
  8
0
 62
     0
 10
62.6251
 20
12.8916
 30
0.0
 11
62.6251
 21
26.8911
 31
0.0
  0
LINE
  8
0
 62
     0
 10
38.8126
 20
26.8911
 30
0.0
 11
52.8119
 21
26.8911
 31
0.0
  0
LINE
  8
0
 62
     0
 10
52.8119
 20
26.8911
 30
0.0
 11
52.8119
 21
12.8916
 31
0.0
  0
LINE
  8
0
 62
     0
 10
52.8119
 20
12.8916
 30
0.0
 11
38.8126
 21
12.8916
 31
0.0
  0
LINE
  8
0
 62
     0
 10
38.8126
 20
12.8916
 30
0.0
 11
38.8126
 21
26.8911
 31
0.0
  0
LINE
  8
0
 62
     0
 10
14.9999
 20
26.8911
 30
0.0
 11
29.0008
 21
26.8911
 31
0.0
  0
LINE
  8
0
 62
     0
 10
29.0008
 20
26.8911
 30
0.0
 11
29.0008
 21
12.8916
 31
0.0
  0
LINE
  8
0
 62
     0
 10
29.0008
 20
12.8916
 30
0.0
 11
14.9999
 21
12.8916
 31
0.0
  0
LINE
  8
0
 62
     0
 10
14.9999
 20
12.8916
 30
0.0
 11
14.9999
 21
26.8911
 31
0.0
  0
LINE
  8
0
 62
     0
 10
298.37
 20
45.9412
 30
0.0
 11
312.37
 21
45.9412
 31
0.0
  0
LINE
  8
0
 62
     0
 10
312.37
 20
45.9412
 30
0.0
 11
312.37
 21
31.9416
 31
0.0
  0
LINE
  8
0
 62
     0
 10
312.37
 20
31.9416
 30
0.0
 11
298.37
 21
31.9416
 31
0.0
  0
LINE
  8
0
 62
     0
 10
298.37
 20
31.9416
 30
0.0
 11
298.37
 21
45.9412
 31
0.0
  0
LINE
  8
0
 62
     0
 10
279.32
 20
45.9412
 30
0.0
 11
293.32
 21
45.9412
 31
0.0
  0
LINE
  8
0
 62
     0
 10
293.32
 20
45.9412
 30
0.0
 11
293.32
 21
31.9416
 31
0.0
  0
LINE
  8
0
 62
     0
 10
293.32
 20
31.9416
 30
0.0
 11
279.32
 21
31.9416
 31
0.0
  0
LINE
  8
0
 62
     0
 10
279.32
 20
31.9416
 30
0.0
 11
279.32
 21
45.9412
 31
0.0
  0
LINE
  8
0
 62
     0
 10
253.125
 20
45.9412
 30
0.0
 11
267.126
 21
45.9412
 31
0.0
  0
LINE
  8
0
 62
     0
 10
267.126
 20
45.9412
 30
0.0
 11
267.126
 21
31.9416
 31
0.0
  0
LINE
  8
0
 62
     0
 10
267.126
 20
31.9416
 30
0.0
 11
253.125
 21
31.9416
 31
0.0
  0
LINE
  8
0
 62
     0
 10
253.125
 20
31.9416
 30
0.0
 11
253.125
 21
45.9412
 31
0.0
  0
LINE
  8
0
 62
     0
 10
226.931
 20
45.9412
 30
0.0
 11
240.932
 21
45.9412
 31
0.0
  0
LINE
  8
0
 62
     0
 10
240.932
 20
45.9412
 30
0.0
 11
240.932
 21
31.9416
 31
0.0
  0
LINE
  8
0
 62
     0
 10
240.932
 20
31.9416
 30
0.0
 11
226.931
 21
31.9416
 31
0.0
  0
LINE
  8
0
 62
     0
 10
226.931
 20
31.9416
 30
0.0
 11
226.931
 21
45.9412
 31
0.0
  0
LINE
  8
0
 62
     0
 10
207.881
 20
45.9412
 30
0.0
 11
221.882
 21
45.9412
 31
0.0
  0
LINE
  8
0
 62
     0
 10
221.882
 20
45.9412
 30
0.0
 11
221.882
 21
31.9416
 31
0.0
  0
LINE
  8
0
 62
     0
 10
221.882
 20
31.9416
 30
0.0
 11
207.881
 21
31.9416
 31
0.0
  0
LINE
  8
0
 62
     0
 10
207.881
 20
31.9416
 30
0.0
 11
207.881
 21
45.9412
 31
0.0
  0
LINE
  8
0
 62
     0
 10
188.831
 20
45.9412
 30
0.0
 11
202.832
 21
45.9412
 31
0.0
  0
LINE
  8
0
 62
     0
 10
202.832
 20
45.9412
 30
0.0
 11
202.832
 21
31.9416
 31
0.0
  0
LINE
  8
0
 62
     0
 10
202.832
 20
31.9416
 30
0.0
 11
188.831
 21
31.9416
 31
0.0
  0
LINE
  8
0
 62
     0
 10
188.831
 20
31.9416
 30
0.0
 11
188.831
 21
45.9412
 31
0.0
  0
LINE
  8
0
 62
     0
 10
169.781
 20
45.9412
 30
0.0
 11
183.782
 21
45.9412
 31
0.0
  0
LINE
  8
0
 62
     0
 10
183.782
 20
45.9412
 30
0.0
 11
183.782
 21
31.9416
 31
0.0
  0
LINE
  8
0
 62
     0
 10
183.782
 20
31.9416
 30
0.0
 11
169.781
 21
31.9416
 31
0.0
  0
LINE
  8
0
 62
     0
 10
169.781
 20
31.9416
 30
0.0
 11
169.781
 21
45.9412
 31
0.0
  0
LINE
  8
0
 62
     0
 10
150.731
 20
45.9412
 30
0.0
 11
164.732
 21
45.9412
 31
0.0
  0
LINE
  8
0
 62
     0
 10
164.732
 20
45.9412
 30
0.0
 11
164.732
 21
31.9416
 31
0.0
  0
LINE
  8
0
 62
     0
 10
164.732
 20
31.9416
 30
0.0
 11
150.731
 21
31.9416
 31
0.0
  0
LINE
  8
0
 62
     0
 10
150.731
 20
31.9416
 30
0.0
 11
150.731
 21
45.9412
 31
0.0
  0
LINE
  8
0
 62
     0
 10
131.681
 20
45.9412
 30
0.0
 11
145.682
 21
45.9412
 31
0.0
  0
LINE
  8
0
 62
     0
 10
145.682
 20
45.9412
 30
0.0
 11
145.682
 21
31.9416
 31
0.0
  0
LINE
  8
0
 62
     0
 10
145.682
 20
31.9416
 30
0.0
 11
131.681
 21
31.9416
 31
0.0
  0
LINE
  8
0
 62
     0
 10
131.681
 20
31.9416
 30
0.0
 11
131.681
 21
45.9412
 31
0.0
  0
LINE
  8
0
 62
     0
 10
112.631
 20
45.9412
 30
0.0
 11
126.632
 21
45.9412
 31
0.0
  0
LINE
  8
0
 62
     0
 10
126.632
 20
45.9412
 30
0.0
 11
126.632
 21
31.9416
 31
0.0
  0
LINE
  8
0
 62
     0
 10
126.632
 20
31.9416
 30
0.0
 11
112.631
 21
31.9416
 31
0.0
  0
LINE
  8
0
 62
     0
 10
112.631
 20
31.9416
 30
0.0
 11
112.631
 21
45.9412
 31
0.0
  0
LINE
  8
0
 62
     0
 10
93.5814
 20
45.9412
 30
0.0
 11
107.582
 21
45.9412
 31
0.0
  0
LINE
  8
0
 62
     0
 10
107.582
 20
45.9412
 30
0.0
 11
107.582
 21
31.9416
 31
0.0
  0
LINE
  8
0
 62
     0
 10
107.582
 20
31.9416
 30
0.0
 11
93.5814
 21
31.9416
 31
0.0
  0
LINE
  8
0
 62
     0
 10
93.5814
 20
31.9416
 30
0.0
 11
93.5814
 21
45.9412
 31
0.0
  0
LINE
  8
0
 62
     0
 10
74.5314
 20
45.9412
 30
0.0
 11
88.5321
 21
45.9412
 31
0.0
  0
LINE
  8
0
 62
     0
 10
88.5321
 20
45.9412
 30
0.0
 11
88.5321
 21
31.9416
 31
0.0
  0
LINE
  8
0
 62
     0
 10
88.5321
 20
31.9416
 30
0.0
 11
74.5314
 21
31.9416
 31
0.0
  0
LINE
  8
0
 62
     0
 10
74.5314
 20
31.9416
 30
0.0
 11
74.5314
 21
45.9412
 31
0.0
  0
LINE
  8
0
 62
     0
 10
55.4814
 20
45.9412
 30
0.0
 11
69.4821
 21
45.9412
 31
0.0
  0
LINE
  8
0
 62
     0
 10
69.4821
 20
45.9412
 30
0.0
 11
69.4821
 21
31.9416
 31
0.0
  0
LINE
  8
0
 62
     0
 10
69.4821
 20
31.9416
 30
0.0
 11
55.4814
 21
31.9416
 31
0.0
  0
LINE
  8
0
 62
     0
 10
55.4814
 20
31.9416
 30
0.0
 11
55.4814
 21
45.9412
 31
0.0
  0
LINE
  8
0
 62
     0
 10
36.4314
 20
45.9412
 30
0.0
 11
50.4321
 21
45.9412
 31
0.0
  0
LINE
  8
0
 62
     0
 10
50.4321
 20
45.9412
 30
0.0
 11
50.4321
 21
31.9416
 31
0.0
  0
LINE
  8
0
 62
     0
 10
50.4321
 20
31.9416
 30
0.0
 11
36.4314
 21
31.9416
 31
0.0
  0
LINE
  8
0
 62
     0
 10
36.4314
 20
31.9416
 30
0.0
 11
36.4314
 21
45.9412
 31
0.0
  0
LINE
  8
0
 62
     0
 10
14.9999
 20
45.9412
 30
0.0
 11
29.0008
 21
45.9412
 31
0.0
  0
LINE
  8
0
 62
     0
 10
29.0008
 20
45.9412
 30
0.0
 11
29.0008
 21
31.9416
 31
0.0
  0
LINE
  8
0
 62
     0
 10
29.0008
 20
31.9416
 30
0.0
 11
14.9999
 21
31.9416
 31
0.0
  0
LINE
  8
0
 62
     0
 10
14.9999
 20
31.9416
 30
0.0
 11
14.9999
 21
45.9412
 31
0.0
  0
LINE
  8
0
 62
     0
 10
298.37
 20
64.9912
 30
0.0
 11
312.37
 21
64.9912
 31
0.0
  0
LINE
  8
0
 62
     0
 10
312.37
 20
64.9912
 30
0.0
 11
312.37
 21
50.9916
 31
0.0
  0
LINE
  8
0
 62
     0
 10
312.37
 20
50.9916
 30
0.0
 11
298.37
 21
50.9916
 31
0.0
  0
LINE
  8
0
 62
     0
 10
298.37
 20
50.9916
 30
0.0
 11
298.37
 21
64.9912
 31
0.0
  0
LINE
  8
0
 62
     0
 10
255.505
 20
64.9912
 30
0.0
 11
269.507
 21
64.9912
 31
0.0
  0
LINE
  8
0
 62
     0
 10
269.507
 20
64.9912
 30
0.0
 11
269.507
 21
50.9916
 31
0.0
  0
LINE
  8
0
 62
     0
 10
269.507
 20
50.9916
 30
0.0
 11
255.505
 21
50.9916
 31
0.0
  0
LINE
  8
0
 62
     0
 10
255.505
 20
50.9916
 30
0.0
 11
255.505
 21
64.9912
 31
0.0
  0
LINE
  8
0
 62
     0
 10
236.456
 20
64.9912
 30
0.0
 11
250.457
 21
64.9912
 31
0.0
  0
LINE
  8
0
 62
     0
 10
250.457
 20
64.9912
 30
0.0
 11
250.457
 21
50.9916
 31
0.0
  0
LINE
  8
0
 62
     0
 10
250.457
 20
50.9916
 30
0.0
 11
236.456
 21
50.9916
 31
0.0
  0
LINE
  8
0
 62
     0
 10
236.456
 20
50.9916
 30
0.0
 11
236.456
 21
64.9912
 31
0.0
  0
LINE
  8
0
 62
     0
 10
217.406
 20
64.9912
 30
0.0
 11
231.407
 21
64.9912
 31
0.0
  0
LINE
  8
0
 62
     0
 10
231.407
 20
64.9912
 30
0.0
 11
231.407
 21
50.9916
 31
0.0
  0
LINE
  8
0
 62
     0
 10
231.407
 20
50.9916
 30
0.0
 11
217.406
 21
50.9916
 31
0.0
  0
LINE
  8
0
 62
     0
 10
217.406
 20
50.9916
 30
0.0
 11
217.406
 21
64.9912
 31
0.0
  0
LINE
  8
0
 62
     0
 10
198.356
 20
64.9912
 30
0.0
 11
212.357
 21
64.9912
 31
0.0
  0
LINE
  8
0
 62
     0
 10
212.357
 20
64.9912
 30
0.0
 11
212.357
 21
50.9916
 31
0.0
  0
LINE
  8
0
 62
     0
 10
212.357
 20
50.9916
 30
0.0
 11
198.356
 21
50.9916
 31
0.0
  0
LINE
  8
0
 62
     0
 10
198.356
 20
50.9916
 30
0.0
 11
198.356
 21
64.9912
 31
0.0
  0
LINE
  8
0
 62
     0
 10
179.306
 20
64.9912
 30
0.0
 11
193.307
 21
64.9912
 31
0.0
  0
LINE
  8
0
 62
     0
 10
193.307
 20
64.9912
 30
0.0
 11
193.307
 21
50.9916
 31
0.0
  0
LINE
  8
0
 62
     0
 10
193.307
 20
50.9916
 30
0.0
 11
179.306
 21
50.9916
 31
0.0
  0
LINE
  8
0
 62
     0
 10
179.306
 20
50.9916
 30
0.0
 11
179.306
 21
64.9912
 31
0.0
  0
LINE
  8
0
 62
     0
 10
160.256
 20
64.9912
 30
0.0
 11
174.257
 21
64.9912
 31
0.0
  0
LINE
  8
0
 62
     0
 10
174.257
 20
64.9912
 30
0.0
 11
174.257
 21
50.9916
 31
0.0
  0
LINE
  8
0
 62
     0
 10
174.257
 20
50.9916
 30
0.0
 11
160.256
 21
50.9916
 31
0.0
  0
LINE
  8
0
 62
     0
 10
160.256
 20
50.9916
 30
0.0
 11
160.256
 21
64.9912
 31
0.0
  0
LINE
  8
0
 62
     0
 10
141.206
 20
64.9912
 30
0.0
 11
155.207
 21
64.9912
 31
0.0
  0
LINE
  8
0
 62
     0
 10
155.207
 20
64.9912
 30
0.0
 11
155.207
 21
50.9916
 31
0.0
  0
LINE
  8
0
 62
     0
 10
155.207
 20
50.9916
 30
0.0
 11
141.206
 21
50.9916
 31
0.0
  0
LINE
  8
0
 62
     0
 10
141.206
 20
50.9916
 30
0.0
 11
141.206
 21
64.9912
 31
0.0
  0
LINE
  8
0
 62
     0
 10
122.156
 20
64.9912
 30
0.0
 11
136.157
 21
64.9912
 31
0.0
  0
LINE
  8
0
 62
     0
 10
136.157
 20
64.9912
 30
0.0
 11
136.157
 21
50.9916
 31
0.0
  0
LINE
  8
0
 62
     0
 10
136.157
 20
50.9916
 30
0.0
 11
122.156
 21
50.9916
 31
0.0
  0
LINE
  8
0
 62
     0
 10
122.156
 20
50.9916
 30
0.0
 11
122.156
 21
64.9912
 31
0.0
  0
LINE
  8
0
 62
     0
 10
103.106
 20
64.9912
 30
0.0
 11
117.107
 21
64.9912
 31
0.0
  0
LINE
  8
0
 62
     0
 10
117.107
 20
64.9912
 30
0.0
 11
117.107
 21
50.9916
 31
0.0
  0
LINE
  8
0
 62
     0
 10
117.107
 20
50.9916
 30
0.0
 11
103.106
 21
50.9916
 31
0.0
  0
LINE
  8
0
 62
     0
 10
103.106
 20
50.9916
 30
0.0
 11
103.106
 21
64.9912
 31
0.0
  0
LINE
  8
0
 62
     0
 10
84.0564
 20
64.9912
 30
0.0
 11
98.0571
 21
64.9912
 31
0.0
  0
LINE
  8
0
 62
     0
 10
98.0571
 20
64.9912
 30
0.0
 11
98.0571
 21
50.9916
 31
0.0
  0
LINE
  8
0
 62
     0
 10
98.0571
 20
50.9916
 30
0.0
 11
84.0564
 21
50.9916
 31
0.0
  0
LINE
  8
0
 62
     0
 10
84.0564
 20
50.9916
 30
0.0
 11
84.0564
 21
64.9912
 31
0.0
  0
LINE
  8
0
 62
     0
 10
65.0064
 20
64.9912
 30
0.0
 11
79.0071
 21
64.9912
 31
0.0
  0
LINE
  8
0
 62
     0
 10
79.0071
 20
64.9912
 30
0.0
 11
79.0071
 21
50.9916
 31
0.0
  0
LINE
  8
0
 62
     0
 10
79.0071
 20
50.9916
 30
0.0
 11
65.0064
 21
50.9916
 31
0.0
  0
LINE
  8
0
 62
     0
 10
65.0064
 20
50.9916
 30
0.0
 11
65.0064
 21
64.9912
 31
0.0
  0
LINE
  8
0
 62
     0
 10
45.9564
 20
64.9912
 30
0.0
 11
59.9556
 21
64.9912
 31
0.0
  0
LINE
  8
0
 62
     0
 10
59.9556
 20
64.9912
 30
0.0
 11
59.9556
 21
50.9916
 31
0.0
  0
LINE
  8
0
 62
     0
 10
59.9556
 20
50.9916
 30
0.0
 11
45.9564
 21
50.9916
 31
0.0
  0
LINE
  8
0
 62
     0
 10
45.9564
 20
50.9916
 30
0.0
 11
45.9564
 21
64.9912
 31
0.0
  0
LINE
  8
0
 62
     0
 10
19.7624
 20
64.9912
 30
0.0
 11
33.7619
 21
64.9912
 31
0.0
  0
LINE
  8
0
 62
     0
 10
33.7619
 20
64.9912
 30
0.0
 11
33.7619
 21
50.9916
 31
0.0
  0
LINE
  8
0
 62
     0
 10
33.7619
 20
50.9916
 30
0.0
 11
19.7624
 21
50.9916
 31
0.0
  0
LINE
  8
0
 62
     0
 10
19.7624
 20
50.9916
 30
0.0
 11
19.7624
 21
64.9912
 31
0.0
  0
LINE
  8
0
 62
     0
 10
283.438
 20
83.6164
 30
0.0
 11
283.438
 21
82.7913
 31
0.0
  0
LINE
  8
0
 62
     0
 10
283.438
 20
82.7913
 30
0.0
 11
277.168
 21
82.7913
 31
0.0
  0
LINE
  8
0
 62
     0
 10
277.168
 20
82.7913
 30
0.0
 11
277.168
 21
81.0673
 31
0.0
  0
LINE
  8
0
 62
     0
 10
277.168
 20
81.0673
 30
0.0
 11
276.188
 21
81.0673
 31
0.0
  0
LINE
  8
0
 62
     0
 10
276.188
 20
81.0673
 30
0.0
 11
276.188
 21
77.7667
 31
0.0
  0
LINE
  8
0
 62
     0
 10
276.188
 20
77.7667
 30
0.0
 11
277.168
 21
77.7667
 31
0.0
  0
LINE
  8
0
 62
     0
 10
277.168
 20
77.7667
 30
0.0
 11
277.168
 21
76.0416
 31
0.0
  0
LINE
  8
0
 62
     0
 10
277.168
 20
76.0416
 30
0.0
 11
281.638
 21
76.0416
 31
0.0
  0
LINE
  8
0
 62
     0
 10
281.638
 20
76.0416
 30
0.0
 11
281.638
 21
74.5162
 31
0.0
  0
LINE
  8
0
 62
     0
 10
281.638
 20
74.5162
 30
0.0
 11
276.938
 21
74.5162
 31
0.0
  0
LINE
  8
0
 62
     0
 10
276.938
 20
74.5162
 30
0.0
 11
276.938
 21
60.5166
 31
0.0
  0
LINE
  8
0
 62
     0
 10
276.938
 20
60.5166
 30
0.0
 11
281.638
 21
60.5166
 31
0.0
  0
LINE
  8
0
 62
     0
 10
281.638
 20
60.5166
 30
0.0
 11
281.638
 21
58.9911
 31
0.0
  0
LINE
  8
0
 62
     0
 10
281.638
 20
58.9911
 30
0.0
 11
277.168
 21
58.9911
 31
0.0
  0
LINE
  8
0
 62
     0
 10
277.168
 20
58.9911
 30
0.0
 11
277.168
 21
57.2671
 31
0.0
  0
LINE
  8
0
 62
     0
 10
277.168
 20
57.2671
 30
0.0
 11
276.188
 21
57.2671
 31
0.0
  0
LINE
  8
0
 62
     0
 10
276.188
 20
57.2671
 30
0.0
 11
276.188
 21
53.9669
 31
0.0
  0
LINE
  8
0
 62
     0
 10
276.188
 20
53.9669
 30
0.0
 11
277.168
 21
53.9669
 31
0.0
  0
LINE
  8
0
 62
     0
 10
277.168
 20
53.9669
 30
0.0
 11
277.168
 21
52.2414
 31
0.0
  0
LINE
  8
0
 62
     0
 10
277.168
 20
52.2414
 30
0.0
 11
283.438
 21
52.2414
 31
0.0
  0
LINE
  8
0
 62
     0
 10
283.438
 20
52.2414
 30
0.0
 11
283.438
 21
51.416
 31
0.0
  0
LINE
  8
0
 62
     0
 10
283.438
 20
51.416
 30
0.0
 11
286.238
 21
51.416
 31
0.0
  0
LINE
  8
0
 62
     0
 10
286.238
 20
51.416
 30
0.0
 11
286.238
 21
52.2414
 31
0.0
  0
LINE
  8
0
 62
     0
 10
286.238
 20
52.2414
 30
0.0
 11
289.468
 21
52.2414
 31
0.0
  0
LINE
  8
0
 62
     0
 10
289.468
 20
52.2414
 30
0.0
 11
289.468
 21
53.9669
 31
0.0
  0
LINE
  8
0
 62
     0
 10
289.468
 20
53.9669
 30
0.0
 11
290.387
 21
53.9669
 31
0.0
  0
LINE
  8
0
 62
     0
 10
290.387
 20
53.9669
 30
0.0
 11
290.387
 21
57.2671
 31
0.0
  0
LINE
  8
0
 62
     0
 10
290.387
 20
57.2671
 30
0.0
 11
289.468
 21
57.2671
 31
0.0
  0
LINE
  8
0
 62
     0
 10
289.468
 20
57.2671
 30
0.0
 11
289.468
 21
58.9911
 31
0.0
  0
LINE
  8
0
 62
     0
 10
289.468
 20
58.9911
 30
0.0
 11
286.238
 21
58.9911
 31
0.0
  0
LINE
  8
0
 62
     0
 10
286.238
 20
58.9911
 30
0.0
 11
286.238
 21
60.5166
 31
0.0
  0
LINE
  8
0
 62
     0
 10
286.238
 20
60.5166
 30
0.0
 11
290.937
 21
60.5166
 31
0.0
  0
LINE
  8
0
 62
     0
 10
290.937
 20
60.5166
 30
0.0
 11
290.937
 21
74.5162
 31
0.0
  0
LINE
  8
0
 62
     0
 10
290.937
 20
74.5162
 30
0.0
 11
286.238
 21
74.5162
 31
0.0
  0
LINE
  8
0
 62
     0
 10
286.238
 20
74.5162
 30
0.0
 11
286.238
 21
76.0416
 31
0.0
  0
LINE
  8
0
 62
     0
 10
286.238
 20
76.0416
 30
0.0
 11
289.468
 21
76.0416
 31
0.0
  0
LINE
  8
0
 62
     0
 10
289.468
 20
76.0416
 30
0.0
 11
289.468
 21
77.7667
 31
0.0
  0
LINE
  8
0
 62
     0
 10
289.468
 20
77.7667
 30
0.0
 11
290.387
 21
77.7667
 31
0.0
  0
LINE
  8
0
 62
     0
 10
290.387
 20
77.7667
 30
0.0
 11
290.387
 21
81.0673
 31
0.0
  0
LINE
  8
0
 62
     0
 10
290.387
 20
81.0673
 30
0.0
 11
289.468
 21
81.0673
 31
0.0
  0
LINE
  8
0
 62
     0
 10
289.468
 20
81.0673
 30
0.0
 11
289.468
 21
82.7913
 31
0.0
  0
LINE
  8
0
 62
     0
 10
289.468
 20
82.7913
 30
0.0
 11
286.238
 21
82.7913
 31
0.0
  0
LINE
  8
0
 62
     0
 10
286.238
 20
82.7913
 30
0.0
 11
286.238
 21
83.6164
 31
0.0
  0
LINE
  8
0
 62
     0
 10
286.238
 20
83.6164
 30
0.0
 11
283.438
 21
83.6164
 31
0.0
  0
LINE
  8
0
 62
     0
 10
298.37
 20
84.0412
 30
0.0
 11
312.37
 21
84.0412
 31
0.0
  0
LINE
  8
0
 62
     0
 10
312.37
 20
84.0412
 30
0.0
 11
312.37
 21
70.0416
 31
0.0
  0
LINE
  8
0
 62
     0
 10
312.37
 20
70.0416
 30
0.0
 11
298.37
 21
70.0416
 31
0.0
  0
LINE
  8
0
 62
     0
 10
298.37
 20
70.0416
 30
0.0
 11
298.37
 21
84.0412
 31
0.0
  0
LINE
  8
0
 62
     0
 10
250.745
 20
84.0412
 30
0.0
 11
264.745
 21
84.0412
 31
0.0
  0
LINE
  8
0
 62
     0
 10
264.745
 20
84.0412
 30
0.0
 11
264.745
 21
70.0416
 31
0.0
  0
LINE
  8
0
 62
     0
 10
264.745
 20
70.0416
 30
0.0
 11
250.745
 21
70.0416
 31
0.0
  0
LINE
  8
0
 62
     0
 10
250.745
 20
70.0416
 30
0.0
 11
250.745
 21
84.0412
 31
0.0
  0
LINE
  8
0
 62
     0
 10
231.695
 20
84.0412
 30
0.0
 11
245.695
 21
84.0412
 31
0.0
  0
LINE
  8
0
 62
     0
 10
245.695
 20
84.0412
 30
0.0
 11
245.695
 21
70.0416
 31
0.0
  0
LINE
  8
0
 62
     0
 10
245.695
 20
70.0416
 30
0.0
 11
231.695
 21
70.0416
 31
0.0
  0
LINE
  8
0
 62
     0
 10
231.695
 20
70.0416
 30
0.0
 11
231.695
 21
84.0412
 31
0.0
  0
LINE
  8
0
 62
     0
 10
212.645
 20
84.0412
 30
0.0
 11
226.645
 21
84.0412
 31
0.0
  0
LINE
  8
0
 62
     0
 10
226.645
 20
84.0412
 30
0.0
 11
226.645
 21
70.0416
 31
0.0
  0
LINE
  8
0
 62
     0
 10
226.645
 20
70.0416
 30
0.0
 11
212.645
 21
70.0416
 31
0.0
  0
LINE
  8
0
 62
     0
 10
212.645
 20
70.0416
 30
0.0
 11
212.645
 21
84.0412
 31
0.0
  0
LINE
  8
0
 62
     0
 10
193.595
 20
84.0412
 30
0.0
 11
207.595
 21
84.0412
 31
0.0
  0
LINE
  8
0
 62
     0
 10
207.595
 20
84.0412
 30
0.0
 11
207.595
 21
70.0416
 31
0.0
  0
LINE
  8
0
 62
     0
 10
207.595
 20
70.0416
 30
0.0
 11
193.595
 21
70.0416
 31
0.0
  0
LINE
  8
0
 62
     0
 10
193.595
 20
70.0416
 30
0.0
 11
193.595
 21
84.0412
 31
0.0
  0
LINE
  8
0
 62
     0
 10
174.545
 20
84.0412
 30
0.0
 11
188.545
 21
84.0412
 31
0.0
  0
LINE
  8
0
 62
     0
 10
188.545
 20
84.0412
 30
0.0
 11
188.545
 21
70.0416
 31
0.0
  0
LINE
  8
0
 62
     0
 10
188.545
 20
70.0416
 30
0.0
 11
174.545
 21
70.0416
 31
0.0
  0
LINE
  8
0
 62
     0
 10
174.545
 20
70.0416
 30
0.0
 11
174.545
 21
84.0412
 31
0.0
  0
LINE
  8
0
 62
     0
 10
155.495
 20
84.0412
 30
0.0
 11
169.495
 21
84.0412
 31
0.0
  0
LINE
  8
0
 62
     0
 10
169.495
 20
84.0412
 30
0.0
 11
169.495
 21
70.0416
 31
0.0
  0
LINE
  8
0
 62
     0
 10
169.495
 20
70.0416
 30
0.0
 11
155.495
 21
70.0416
 31
0.0
  0
LINE
  8
0
 62
     0
 10
155.495
 20
70.0416
 30
0.0
 11
155.495
 21
84.0412
 31
0.0
  0
LINE
  8
0
 62
     0
 10
136.445
 20
84.0412
 30
0.0
 11
150.445
 21
84.0412
 31
0.0
  0
LINE
  8
0
 62
     0
 10
150.445
 20
84.0412
 30
0.0
 11
150.445
 21
70.0416
 31
0.0
  0
LINE
  8
0
 62
     0
 10
150.445
 20
70.0416
 30
0.0
 11
136.445
 21
70.0416
 31
0.0
  0
LINE
  8
0
 62
     0
 10
136.445
 20
70.0416
 30
0.0
 11
136.445
 21
84.0412
 31
0.0
  0
LINE
  8
0
 62
     0
 10
117.395
 20
84.0412
 30
0.0
 11
131.395
 21
84.0412
 31
0.0
  0
LINE
  8
0
 62
     0
 10
131.395
 20
84.0412
 30
0.0
 11
131.395
 21
70.0416
 31
0.0
  0
LINE
  8
0
 62
     0
 10
131.395
 20
70.0416
 30
0.0
 11
117.395
 21
70.0416
 31
0.0
  0
LINE
  8
0
 62
     0
 10
117.395
 20
70.0416
 30
0.0
 11
117.395
 21
84.0412
 31
0.0
  0
LINE
  8
0
 62
     0
 10
98.3449
 20
84.0412
 30
0.0
 11
112.345
 21
84.0412
 31
0.0
  0
LINE
  8
0
 62
     0
 10
112.345
 20
84.0412
 30
0.0
 11
112.345
 21
70.0416
 31
0.0
  0
LINE
  8
0
 62
     0
 10
112.345
 20
70.0416
 30
0.0
 11
98.3449
 21
70.0416
 31
0.0
  0
LINE
  8
0
 62
     0
 10
98.3449
 20
70.0416
 30
0.0
 11
98.3449
 21
84.0412
 31
0.0
  0
LINE
  8
0
 62
     0
 10
79.2949
 20
84.0412
 30
0.0
 11
93.2946
 21
84.0412
 31
0.0
  0
LINE
  8
0
 62
     0
 10
93.2946
 20
84.0412
 30
0.0
 11
93.2946
 21
70.0416
 31
0.0
  0
LINE
  8
0
 62
     0
 10
93.2946
 20
70.0416
 30
0.0
 11
79.2949
 21
70.0416
 31
0.0
  0
LINE
  8
0
 62
     0
 10
79.2949
 20
70.0416
 30
0.0
 11
79.2949
 21
84.0412
 31
0.0
  0
LINE
  8
0
 62
     0
 10
60.2449
 20
84.0412
 30
0.0
 11
74.2446
 21
84.0412
 31
0.0
  0
LINE
  8
0
 62
     0
 10
74.2446
 20
84.0412
 30
0.0
 11
74.2446
 21
70.0416
 31
0.0
  0
LINE
  8
0
 62
     0
 10
74.2446
 20
70.0416
 30
0.0
 11
60.2449
 21
70.0416
 31
0.0
  0
LINE
  8
0
 62
     0
 10
60.2449
 20
70.0416
 30
0.0
 11
60.2449
 21
84.0412
 31
0.0
  0
LINE
  8
0
 62
     0
 10
41.1949
 20
84.0412
 30
0.0
 11
55.1946
 21
84.0412
 31
0.0
  0
LINE
  8
0
 62
     0
 10
55.1946
 20
84.0412
 30
0.0
 11
55.1946
 21
70.0416
 31
0.0
  0
LINE
  8
0
 62
     0
 10
55.1946
 20
70.0416
 30
0.0
 11
41.1949
 21
70.0416
 31
0.0
  0
LINE
  8
0
 62
     0
 10
41.1949
 20
70.0416
 30
0.0
 11
41.1949
 21
84.0412
 31
0.0
  0
LINE
  8
0
 62
     0
 10
17.3812
 20
84.0412
 30
0.0
 11
31.3821
 21
84.0412
 31
0.0
  0
LINE
  8
0
 62
     0
 10
31.3821
 20
84.0412
 30
0.0
 11
31.3821
 21
70.0416
 31
0.0
  0
LINE
  8
0
 62
     0
 10
31.3821
 20
70.0416
 30
0.0
 11
17.3812
 21
70.0416
 31
0.0
  0
LINE
  8
0
 62
     0
 10
17.3812
 20
70.0416
 30
0.0
 11
17.3812
 21
84.0412
 31
0.0
  0
LINE
  8
0
 62
     0
 10
269.795
 20
103.091
 30
0.0
 11
269.795
 21
98.3918
 31
0.0
  0
LINE
  8
0
 62
     0
 10
269.795
 20
98.3918
 30
0.0
 11
268.27
 21
98.3918
 31
0.0
  0
LINE
  8
0
 62
     0
 10
268.27
 20
98.3918
 30
0.0
 11
268.27
 21
101.622
 31
0.0
  0
LINE
  8
0
 62
     0
 10
268.27
 20
101.622
 30
0.0
 11
266.544
 21
101.622
 31
0.0
  0
LINE
  8
0
 62
     0
 10
266.544
 20
101.622
 30
0.0
 11
266.544
 21
102.541
 31
0.0
  0
LINE
  8
0
 62
     0
 10
266.544
 20
102.541
 30
0.0
 11
263.244
 21
102.541
 31
0.0
  0
LINE
  8
0
 62
     0
 10
263.244
 20
102.541
 30
0.0
 11
263.244
 21
101.622
 31
0.0
  0
LINE
  8
0
 62
     0
 10
263.244
 20
101.622
 30
0.0
 11
261.52
 21
101.622
 31
0.0
  0
LINE
  8
0
 62
     0
 10
261.52
 20
101.622
 30
0.0
 11
261.52
 21
98.3918
 31
0.0
  0
LINE
  8
0
 62
     0
 10
261.52
 20
98.3918
 30
0.0
 11
260.695
 21
98.3918
 31
0.0
  0
LINE
  8
0
 62
     0
 10
260.695
 20
98.3918
 30
0.0
 11
260.695
 21
95.5918
 31
0.0
  0
LINE
  8
0
 62
     0
 10
260.695
 20
95.5918
 30
0.0
 11
261.52
 21
95.5918
 31
0.0
  0
LINE
  8
0
 62
     0
 10
261.52
 20
95.5918
 30
0.0
 11
261.52
 21
89.3216
 31
0.0
  0
LINE
  8
0
 62
     0
 10
261.52
 20
89.3216
 30
0.0
 11
263.244
 21
89.3216
 31
0.0
  0
LINE
  8
0
 62
     0
 10
263.244
 20
89.3216
 30
0.0
 11
263.244
 21
88.3419
 31
0.0
  0
LINE
  8
0
 62
     0
 10
263.244
 20
88.3419
 30
0.0
 11
266.544
 21
88.3419
 31
0.0
  0
LINE
  8
0
 62
     0
 10
266.544
 20
88.3419
 30
0.0
 11
266.544
 21
89.3216
 31
0.0
  0
LINE
  8
0
 62
     0
 10
266.544
 20
89.3216
 30
0.0
 11
268.27
 21
89.3216
 31
0.0
  0
LINE
  8
0
 62
     0
 10
268.27
 20
89.3216
 30
0.0
 11
268.27
 21
93.792
 31
0.0
  0
LINE
  8
0
 62
     0
 10
268.27
 20
93.792
 30
0.0
 11
269.795
 21
93.792
 31
0.0
  0
LINE
  8
0
 62
     0
 10
269.795
 20
93.792
 30
0.0
 11
269.795
 21
89.0916
 31
0.0
  0
LINE
  8
0
 62
     0
 10
269.795
 20
89.0916
 30
0.0
 11
283.795
 21
89.0916
 31
0.0
  0
LINE
  8
0
 62
     0
 10
283.795
 20
89.0916
 30
0.0
 11
283.795
 21
93.792
 31
0.0
  0
LINE
  8
0
 62
     0
 10
283.795
 20
93.792
 30
0.0
 11
285.32
 21
93.792
 31
0.0
  0
LINE
  8
0
 62
     0
 10
285.32
 20
93.792
 30
0.0
 11
285.32
 21
89.3216
 31
0.0
  0
LINE
  8
0
 62
     0
 10
285.32
 20
89.3216
 30
0.0
 11
287.044
 21
89.3216
 31
0.0
  0
LINE
  8
0
 62
     0
 10
287.044
 20
89.3216
 30
0.0
 11
287.044
 21
88.3419
 31
0.0
  0
LINE
  8
0
 62
     0
 10
287.044
 20
88.3419
 30
0.0
 11
290.344
 21
88.3419
 31
0.0
  0
LINE
  8
0
 62
     0
 10
290.344
 20
88.3419
 30
0.0
 11
290.344
 21
89.3216
 31
0.0
  0
LINE
  8
0
 62
     0
 10
290.344
 20
89.3216
 30
0.0
 11
292.07
 21
89.3216
 31
0.0
  0
LINE
  8
0
 62
     0
 10
292.07
 20
89.3216
 30
0.0
 11
292.07
 21
95.5918
 31
0.0
  0
LINE
  8
0
 62
     0
 10
292.07
 20
95.5918
 30
0.0
 11
292.895
 21
95.5918
 31
0.0
  0
LINE
  8
0
 62
     0
 10
292.895
 20
95.5918
 30
0.0
 11
292.895
 21
98.3918
 31
0.0
  0
LINE
  8
0
 62
     0
 10
292.895
 20
98.3918
 30
0.0
 11
292.07
 21
98.3918
 31
0.0
  0
LINE
  8
0
 62
     0
 10
292.07
 20
98.3918
 30
0.0
 11
292.07
 21
101.622
 31
0.0
  0
LINE
  8
0
 62
     0
 10
292.07
 20
101.622
 30
0.0
 11
290.344
 21
101.622
 31
0.0
  0
LINE
  8
0
 62
     0
 10
290.344
 20
101.622
 30
0.0
 11
290.344
 21
102.541
 31
0.0
  0
LINE
  8
0
 62
     0
 10
290.344
 20
102.541
 30
0.0
 11
287.044
 21
102.541
 31
0.0
  0
LINE
  8
0
 62
     0
 10
287.044
 20
102.541
 30
0.0
 11
287.044
 21
101.622
 31
0.0
  0
LINE
  8
0
 62
     0
 10
287.044
 20
101.622
 30
0.0
 11
285.32
 21
101.622
 31
0.0
  0
LINE
  8
0
 62
     0
 10
285.32
 20
101.622
 30
0.0
 11
285.32
 21
98.3918
 31
0.0
  0
LINE
  8
0
 62
     0
 10
285.32
 20
98.3918
 30
0.0
 11
283.795
 21
98.3918
 31
0.0
  0
LINE
  8
0
 62
     0
 10
283.795
 20
98.3918
 30
0.0
 11
283.795
 21
103.091
 31
0.0
  0
LINE
  8
0
 62
     0
 10
283.795
 20
103.091
 30
0.0
 11
269.795
 21
103.091
 31
0.0
  0
LINE
  8
0
 62
     0
 10
298.37
 20
103.091
 30
0.0
 11
312.37
 21
103.091
 31
0.0
  0
LINE
  8
0
 62
     0
 10
312.37
 20
103.091
 30
0.0
 11
312.37
 21
89.0916
 31
0.0
  0
LINE
  8
0
 62
     0
 10
312.37
 20
89.0916
 30
0.0
 11
298.37
 21
89.0916
 31
0.0
  0
LINE
  8
0
 62
     0
 10
298.37
 20
89.0916
 30
0.0
 11
298.37
 21
103.091
 31
0.0
  0
LINE
  8
0
 62
     0
 10
241.22
 20
103.091
 30
0.0
 11
255.22
 21
103.091
 31
0.0
  0
LINE
  8
0
 62
     0
 10
255.22
 20
103.091
 30
0.0
 11
255.22
 21
89.0916
 31
0.0
  0
LINE
  8
0
 62
     0
 10
255.22
 20
89.0916
 30
0.0
 11
241.22
 21
89.0916
 31
0.0
  0
LINE
  8
0
 62
     0
 10
241.22
 20
89.0916
 30
0.0
 11
241.22
 21
103.091
 31
0.0
  0
LINE
  8
0
 62
     0
 10
222.17
 20
103.091
 30
0.0
 11
236.17
 21
103.091
 31
0.0
  0
LINE
  8
0
 62
     0
 10
236.17
 20
103.091
 30
0.0
 11
236.17
 21
89.0916
 31
0.0
  0
LINE
  8
0
 62
     0
 10
236.17
 20
89.0916
 30
0.0
 11
222.17
 21
89.0916
 31
0.0
  0
LINE
  8
0
 62
     0
 10
222.17
 20
89.0916
 30
0.0
 11
222.17
 21
103.091
 31
0.0
  0
LINE
  8
0
 62
     0
 10
203.12
 20
103.091
 30
0.0
 11
217.12
 21
103.091
 31
0.0
  0
LINE
  8
0
 62
     0
 10
217.12
 20
103.091
 30
0.0
 11
217.12
 21
89.0916
 31
0.0
  0
LINE
  8
0
 62
     0
 10
217.12
 20
89.0916
 30
0.0
 11
203.12
 21
89.0916
 31
0.0
  0
LINE
  8
0
 62
     0
 10
203.12
 20
89.0916
 30
0.0
 11
203.12
 21
103.091
 31
0.0
  0
LINE
  8
0
 62
     0
 10
184.07
 20
103.091
 30
0.0
 11
198.07
 21
103.091
 31
0.0
  0
LINE
  8
0
 62
     0
 10
198.07
 20
103.091
 30
0.0
 11
198.07
 21
89.0916
 31
0.0
  0
LINE
  8
0
 62
     0
 10
198.07
 20
89.0916
 30
0.0
 11
184.07
 21
89.0916
 31
0.0
  0
LINE
  8
0
 62
     0
 10
184.07
 20
89.0916
 30
0.0
 11
184.07
 21
103.091
 31
0.0
  0
LINE
  8
0
 62
     0
 10
165.02
 20
103.091
 30
0.0
 11
179.02
 21
103.091
 31
0.0
  0
LINE
  8
0
 62
     0
 10
179.02
 20
103.091
 30
0.0
 11
179.02
 21
89.0916
 31
0.0
  0
LINE
  8
0
 62
     0
 10
179.02
 20
89.0916
 30
0.0
 11
165.02
 21
89.0916
 31
0.0
  0
LINE
  8
0
 62
     0
 10
165.02
 20
89.0916
 30
0.0
 11
165.02
 21
103.091
 31
0.0
  0
LINE
  8
0
 62
     0
 10
145.97
 20
103.091
 30
0.0
 11
159.97
 21
103.091
 31
0.0
  0
LINE
  8
0
 62
     0
 10
159.97
 20
103.091
 30
0.0
 11
159.97
 21
89.0916
 31
0.0
  0
LINE
  8
0
 62
     0
 10
159.97
 20
89.0916
 30
0.0
 11
145.97
 21
89.0916
 31
0.0
  0
LINE
  8
0
 62
     0
 10
145.97
 20
89.0916
 30
0.0
 11
145.97
 21
103.091
 31
0.0
  0
LINE
  8
0
 62
     0
 10
126.92
 20
103.091
 30
0.0
 11
140.92
 21
103.091
 31
0.0
  0
LINE
  8
0
 62
     0
 10
140.92
 20
103.091
 30
0.0
 11
140.92
 21
89.0916
 31
0.0
  0
LINE
  8
0
 62
     0
 10
140.92
 20
89.0916
 30
0.0
 11
126.92
 21
89.0916
 31
0.0
  0
LINE
  8
0
 62
     0
 10
126.92
 20
89.0916
 30
0.0
 11
126.92
 21
103.091
 31
0.0
  0
LINE
  8
0
 62
     0
 10
107.869
 20
103.091
 30
0.0
 11
121.868
 21
103.091
 31
0.0
  0
LINE
  8
0
 62
     0
 10
121.868
 20
103.091
 30
0.0
 11
121.868
 21
89.0916
 31
0.0
  0
LINE
  8
0
 62
     0
 10
121.868
 20
89.0916
 30
0.0
 11
107.869
 21
89.0916
 31
0.0
  0
LINE
  8
0
 62
     0
 10
107.869
 20
89.0916
 30
0.0
 11
107.869
 21
103.091
 31
0.0
  0
LINE
  8
0
 62
     0
 10
88.8199
 20
103.091
 30
0.0
 11
102.82
 21
103.091
 31
0.0
  0
LINE
  8
0
 62
     0
 10
102.82
 20
103.091
 30
0.0
 11
102.82
 21
89.0916
 31
0.0
  0
LINE
  8
0
 62
     0
 10
102.82
 20
89.0916
 30
0.0
 11
88.8199
 21
89.0916
 31
0.0
  0
LINE
  8
0
 62
     0
 10
88.8199
 20
89.0916
 30
0.0
 11
88.8199
 21
103.091
 31
0.0
  0
LINE
  8
0
 62
     0
 10
69.7699
 20
103.091
 30
0.0
 11
83.7696
 21
103.091
 31
0.0
  0
LINE
  8
0
 62
     0
 10
83.7696
 20
103.091
 30
0.0
 11
83.7696
 21
89.0916
 31
0.0
  0
LINE
  8
0
 62
     0
 10
83.7696
 20
89.0916
 30
0.0
 11
69.7699
 21
89.0916
 31
0.0
  0
LINE
  8
0
 62
     0
 10
69.7699
 20
89.0916
 30
0.0
 11
69.7699
 21
103.091
 31
0.0
  0
LINE
  8
0
 62
     0
 10
50.7199
 20
103.091
 30
0.0
 11
64.7196
 21
103.091
 31
0.0
  0
LINE
  8
0
 62
     0
 10
64.7196
 20
103.091
 30
0.0
 11
64.7196
 21
89.0916
 31
0.0
  0
LINE
  8
0
 62
     0
 10
64.7196
 20
89.0916
 30
0.0
 11
50.7199
 21
89.0916
 31
0.0
  0
LINE
  8
0
 62
     0
 10
50.7199
 20
89.0916
 30
0.0
 11
50.7199
 21
103.091
 31
0.0
  0
LINE
  8
0
 62
     0
 10
31.6701
 20
103.091
 30
0.0
 11
45.6696
 21
103.091
 31
0.0
  0
LINE
  8
0
 62
     0
 10
45.6696
 20
103.091
 30
0.0
 11
45.6696
 21
89.0916
 31
0.0
  0
LINE
  8
0
 62
     0
 10
45.6696
 20
89.0916
 30
0.0
 11
31.6701
 21
89.0916
 31
0.0
  0
LINE
  8
0
 62
     0
 10
31.6701
 20
89.0916
 30
0.0
 11
31.6701
 21
103.091
 31
0.0
  0
LINE
  8
0
 62
     0
 10
12.6201
 20
103.091
 30
0.0
 11
26.6196
 21
103.091
 31
0.0
  0
LINE
  8
0
 62
     0
 10
26.6196
 20
103.091
 30
0.0
 11
26.6196
 21
89.0916
 31
0.0
  0
LINE
  8
0
 62
     0
 10
26.6196
 20
89.0916
 30
0.0
 11
12.6201
 21
89.0916
 31
0.0
  0
LINE
  8
0
 62
     0
 10
12.6201
 20
89.0916
 30
0.0
 11
12.6201
 21
103.091
 31
0.0
  0
LINE
  8
0
 62
     0
 10
298.37
 20
131.666
 30
0.0
 11
312.37
 21
131.666
 31
0.0
  0
LINE
  8
0
 62
     0
 10
312.37
 20
131.666
 30
0.0
 11
312.37
 21
117.667
 31
0.0
  0
LINE
  8
0
 62
     0
 10
312.37
 20
117.667
 30
0.0
 11
298.37
 21
117.667
 31
0.0
  0
LINE
  8
0
 62
     0
 10
298.37
 20
117.667
 30
0.0
 11
298.37
 21
131.666
 31
0.0
  0
LINE
  8
0
 62
     0
 10
279.32
 20
131.666
 30
0.0
 11
293.32
 21
131.666
 31
0.0
  0
LINE
  8
0
 62
     0
 10
293.32
 20
131.666
 30
0.0
 11
293.32
 21
117.667
 31
0.0
  0
LINE
  8
0
 62
     0
 10
293.32
 20
117.667
 30
0.0
 11
279.32
 21
117.667
 31
0.0
  0
LINE
  8
0
 62
     0
 10
279.32
 20
117.667
 30
0.0
 11
279.32
 21
131.666
 31
0.0
  0
LINE
  8
0
 62
     0
 10
260.27
 20
131.666
 30
0.0
 11
274.27
 21
131.666
 31
0.0
  0
LINE
  8
0
 62
     0
 10
274.27
 20
131.666
 30
0.0
 11
274.27
 21
117.667
 31
0.0
  0
LINE
  8
0
 62
     0
 10
274.27
 20
117.667
 30
0.0
 11
260.27
 21
117.667
 31
0.0
  0
LINE
  8
0
 62
     0
 10
260.27
 20
117.667
 30
0.0
 11
260.27
 21
131.666
 31
0.0
  0
LINE
  8
0
 62
     0
 10
241.22
 20
131.666
 30
0.0
 11
255.22
 21
131.666
 31
0.0
  0
LINE
  8
0
 62
     0
 10
255.22
 20
131.666
 30
0.0
 11
255.22
 21
117.667
 31
0.0
  0
LINE
  8
0
 62
     0
 10
255.22
 20
117.667
 30
0.0
 11
241.22
 21
117.667
 31
0.0
  0
LINE
  8
0
 62
     0
 10
241.22
 20
117.667
 30
0.0
 11
241.22
 21
131.666
 31
0.0
  0
LINE
  8
0
 62
     0
 10
222.17
 20
131.666
 30
0.0
 11
236.17
 21
131.666
 31
0.0
  0
LINE
  8
0
 62
     0
 10
236.17
 20
131.666
 30
0.0
 11
236.17
 21
117.667
 31
0.0
  0
LINE
  8
0
 62
     0
 10
236.17
 20
117.667
 30
0.0
 11
222.17
 21
117.667
 31
0.0
  0
LINE
  8
0
 62
     0
 10
222.17
 20
117.667
 30
0.0
 11
222.17
 21
131.666
 31
0.0
  0
LINE
  8
0
 62
     0
 10
203.12
 20
131.666
 30
0.0
 11
217.12
 21
131.666
 31
0.0
  0
LINE
  8
0
 62
     0
 10
217.12
 20
131.666
 30
0.0
 11
217.12
 21
117.667
 31
0.0
  0
LINE
  8
0
 62
     0
 10
217.12
 20
117.667
 30
0.0
 11
203.12
 21
117.667
 31
0.0
  0
LINE
  8
0
 62
     0
 10
203.12
 20
117.667
 30
0.0
 11
203.12
 21
131.666
 31
0.0
  0
LINE
  8
0
 62
     0
 10
184.07
 20
131.666
 30
0.0
 11
198.07
 21
131.666
 31
0.0
  0
LINE
  8
0
 62
     0
 10
198.07
 20
131.666
 30
0.0
 11
198.07
 21
117.667
 31
0.0
  0
LINE
  8
0
 62
     0
 10
198.07
 20
117.667
 30
0.0
 11
184.07
 21
117.667
 31
0.0
  0
LINE
  8
0
 62
     0
 10
184.07
 20
117.667
 30
0.0
 11
184.07
 21
131.666
 31
0.0
  0
LINE
  8
0
 62
     0
 10
165.02
 20
131.666
 30
0.0
 11
179.02
 21
131.666
 31
0.0
  0
LINE
  8
0
 62
     0
 10
179.02
 20
131.666
 30
0.0
 11
179.02
 21
117.667
 31
0.0
  0
LINE
  8
0
 62
     0
 10
179.02
 20
117.667
 30
0.0
 11
165.02
 21
117.667
 31
0.0
  0
LINE
  8
0
 62
     0
 10
165.02
 20
117.667
 30
0.0
 11
165.02
 21
131.666
 31
0.0
  0
LINE
  8
0
 62
     0
 10
145.97
 20
131.666
 30
0.0
 11
159.97
 21
131.666
 31
0.0
  0
LINE
  8
0
 62
     0
 10
159.97
 20
131.666
 30
0.0
 11
159.97
 21
117.667
 31
0.0
  0
LINE
  8
0
 62
     0
 10
159.97
 20
117.667
 30
0.0
 11
145.97
 21
117.667
 31
0.0
  0
LINE
  8
0
 62
     0
 10
145.97
 20
117.667
 30
0.0
 11
145.97
 21
131.666
 31
0.0
  0
LINE
  8
0
 62
     0
 10
126.92
 20
131.666
 30
0.0
 11
140.92
 21
131.666
 31
0.0
  0
LINE
  8
0
 62
     0
 10
140.92
 20
131.666
 30
0.0
 11
140.92
 21
117.667
 31
0.0
  0
LINE
  8
0
 62
     0
 10
140.92
 20
117.667
 30
0.0
 11
126.92
 21
117.667
 31
0.0
  0
LINE
  8
0
 62
     0
 10
126.92
 20
117.667
 30
0.0
 11
126.92
 21
131.666
 31
0.0
  0
LINE
  8
0
 62
     0
 10
107.869
 20
131.666
 30
0.0
 11
121.868
 21
131.666
 31
0.0
  0
LINE
  8
0
 62
     0
 10
121.868
 20
131.666
 30
0.0
 11
121.868
 21
117.667
 31
0.0
  0
LINE
  8
0
 62
     0
 10
121.868
 20
117.667
 30
0.0
 11
107.869
 21
117.667
 31
0.0
  0
LINE
  8
0
 62
     0
 10
107.869
 20
117.667
 30
0.0
 11
107.869
 21
131.666
 31
0.0
  0
LINE
  8
0
 62
     0
 10
88.8199
 20
131.666
 30
0.0
 11
102.82
 21
131.666
 31
0.0
  0
LINE
  8
0
 62
     0
 10
102.82
 20
131.666
 30
0.0
 11
102.82
 21
117.667
 31
0.0
  0
LINE
  8
0
 62
     0
 10
102.82
 20
117.667
 30
0.0
 11
88.8199
 21
117.667
 31
0.0
  0
LINE
  8
0
 62
     0
 10
88.8199
 20
117.667
 30
0.0
 11
88.8199
 21
131.666
 31
0.0
  0
LINE
  8
0
 62
     0
 10
69.7699
 20
131.666
 30
0.0
 11
83.7696
 21
131.666
 31
0.0
  0
LINE
  8
0
 62
     0
 10
83.7696
 20
131.666
 30
0.0
 11
83.7696
 21
117.667
 31
0.0
  0
LINE
  8
0
 62
     0
 10
83.7696
 20
117.667
 30
0.0
 11
69.7699
 21
117.667
 31
0.0
  0
LINE
  8
0
 62
     0
 10
69.7699
 20
117.667
 30
0.0
 11
69.7699
 21
131.666
 31
0.0
  0
LINE
  8
0
 62
     0
 10
50.7199
 20
131.666
 30
0.0
 11
64.7196
 21
131.666
 31
0.0
  0
LINE
  8
0
 62
     0
 10
64.7196
 20
131.666
 30
0.0
 11
64.7196
 21
117.667
 31
0.0
  0
LINE
  8
0
 62
     0
 10
64.7196
 20
117.667
 30
0.0
 11
50.7199
 21
117.667
 31
0.0
  0
LINE
  8
0
 62
     0
 10
50.7199
 20
117.667
 30
0.0
 11
50.7199
 21
131.666
 31
0.0
  0
LINE
  8
0
 62
     0
 10
31.6701
 20
131.666
 30
0.0
 11
45.6696
 21
131.666
 31
0.0
  0
LINE
  8
0
 62
     0
 10
45.6696
 20
131.666
 30
0.0
 11
45.6696
 21
117.667
 31
0.0
  0
LINE
  8
0
 62
     0
 10
45.6696
 20
117.667
 30
0.0
 11
31.6701
 21
117.667
 31
0.0
  0
LINE
  8
0
 62
     0
 10
31.6701
 20
117.667
 30
0.0
 11
31.6701
 21
131.666
 31
0.0
  0
LINE
  8
0
 62
     0
 10
12.6201
 20
131.666
 30
0.0
 11
26.6196
 21
131.666
 31
0.0
  0
LINE
  8
0
 62
     0
 10
26.6196
 20
131.666
 30
0.0
 11
26.6196
 21
117.667
 31
0.0
  0
LINE
  8
0
 62
     0
 10
26.6196
 20
117.667
 30
0.0
 11
12.6201
 21
117.667
 31
0.0
  0
LINE
  8
0
 62
     0
 10
12.6201
 20
117.667
 30
0.0
 11
12.6201
 21
131.666
 31
0.0
  0
LINE
  8
0
 62
     0
 10
4.47587
 20
141.096
 30
0.0
 11
3.91915
 21
140.811
 31
0.0
  0
LINE
  8
0
 62
     0
 10
3.91915
 20
140.811
 30
0.0
 11
3.47541
 21
140.367
 31
0.0
  0
LINE
  8
0
 62
     0
 10
3.47541
 20
140.367
 30
0.0
 11
3.19016
 21
139.81
 31
0.0
  0
LINE
  8
0
 62
     0
 10
3.19016
 20
139.81
 30
0.0
 11
3.09507
 21
139.192
 31
0.0
  0
LINE
  8
0
 62
     0
 10
3.09507
 20
139.192
 30
0.0
 11
3.19016
 21
138.574
 31
0.0
  0
LINE
  8
0
 62
     0
 10
3.19016
 20
138.574
 30
0.0
 11
3.47541
 21
138.016
 31
0.0
  0
LINE
  8
0
 62
     0
 10
3.47541
 20
138.016
 30
0.0
 11
3.91915
 21
137.574
 31
0.0
  0
LINE
  8
0
 62
     0
 10
3.91915
 20
137.574
 30
0.0
 11
4.47587
 21
137.29
 31
0.0
  0
LINE
  8
0
 62
     0
 10
4.47587
 20
137.29
 30
0.0
 11
5.0946
 21
137.192
 31
0.0
  0
LINE
  8
0
 62
     0
 10
5.0946
 20
137.192
 30
0.0
 11
5.71197
 21
137.29
 31
0.0
  0
LINE
  8
0
 62
     0
 10
5.71197
 20
137.29
 30
0.0
 11
6.27006
 21
137.574
 31
0.0
  0
LINE
  8
0
 62
     0
 10
6.27006
 20
137.574
 30
0.0
 11
6.71241
 21
138.016
 31
0.0
  0
LINE
  8
0
 62
     0
 10
6.71241
 20
138.016
 30
0.0
 11
6.99629
 21
138.574
 31
0.0
  0
LINE
  8
0
 62
     0
 10
6.99629
 20
138.574
 30
0.0
 11
7.09415
 21
139.192
 31
0.0
  0
LINE
  8
0
 62
     0
 10
7.09415
 20
139.192
 30
0.0
 11
6.99629
 21
139.81
 31
0.0
  0
LINE
  8
0
 62
     0
 10
6.99629
 20
139.81
 30
0.0
 11
6.71241
 21
140.367
 31
0.0
  0
LINE
  8
0
 62
     0
 10
6.71241
 20
140.367
 30
0.0
 11
6.27006
 21
140.811
 31
0.0
  0
LINE
  8
0
 62
     0
 10
6.27006
 20
140.811
 30
0.0
 11
5.71197
 21
141.096
 31
0.0
  0
LINE
  8
0
 62
     0
 10
5.71197
 20
141.096
 30
0.0
 11
5.0946
 21
141.191
 31
0.0
  0
LINE
  8
0
 62
     0
 10
5.0946
 20
141.191
 30
0.0
 11
4.47587
 21
141.096
 31
0.0
  0
LINE
  8
0
 62
     0
 10
319.276
 20
141.096
 30
0.0
 11
318.72
 21
140.811
 31
0.0
  0
LINE
  8
0
 62
     0
 10
318.72
 20
140.811
 30
0.0
 11
318.276
 21
140.367
 31
0.0
  0
LINE
  8
0
 62
     0
 10
318.276
 20
140.367
 30
0.0
 11
317.992
 21
139.81
 31
0.0
  0
LINE
  8
0
 62
     0
 10
317.992
 20
139.81
 30
0.0
 11
317.895
 21
139.192
 31
0.0
  0
LINE
  8
0
 62
     0
 10
317.895
 20
139.192
 30
0.0
 11
317.992
 21
138.574
 31
0.0
  0
LINE
  8
0
 62
     0
 10
317.992
 20
138.574
 30
0.0
 11
318.276
 21
138.016
 31
0.0
  0
LINE
  8
0
 62
     0
 10
318.276
 20
138.016
 30
0.0
 11
318.72
 21
137.574
 31
0.0
  0
LINE
  8
0
 62
     0
 10
318.72
 20
137.574
 30
0.0
 11
319.276
 21
137.29
 31
0.0
  0
LINE
  8
0
 62
     0
 10
319.276
 20
137.29
 30
0.0
 11
319.895
 21
137.192
 31
0.0
  0
LINE
  8
0
 62
     0
 10
319.895
 20
137.192
 30
0.0
 11
320.514
 21
137.29
 31
0.0
  0
LINE
  8
0
 62
     0
 10
320.514
 20
137.29
 30
0.0
 11
321.07
 21
137.574
 31
0.0
  0
LINE
  8
0
 62
     0
 10
321.07
 20
137.574
 30
0.0
 11
321.513
 21
138.016
 31
0.0
  0
LINE
  8
0
 62
     0
 10
321.513
 20
138.016
 30
0.0
 11
321.798
 21
138.574
 31
0.0
  0
LINE
  8
0
 62
     0
 10
321.798
 20
138.574
 30
0.0
 11
321.896
 21
139.192
 31
0.0
  0
LINE
  8
0
 62
     0
 10
321.896
 20
139.192
 30
0.0
 11
321.798
 21
139.81
 31
0.0
  0
LINE
  8
0
 62
     0
 10
321.798
 20
139.81
 30
0.0
 11
321.513
 21
140.367
 31
0.0
  0
LINE
  8
0
 62
     0
 10
321.513
 20
140.367
 30
0.0
 11
321.07
 21
140.811
 31
0.0
  0
LINE
  8
0
 62
     0
 10
321.07
 20
140.811
 30
0.0
 11
320.514
 21
141.096
 31
0.0
  0
LINE
  8
0
 62
     0
 10
320.514
 20
141.096
 30
0.0
 11
319.895
 21
141.191
 31
0.0
  0
LINE
  8
0
 62
     0
 10
319.895
 20
141.191
 30
0.0
 11
319.276
 21
141.096
 31
0.0
  0
ENDSEC
  0
EOF
